Главная » 2008 » Ноябрь » 29 » Celldweller - Symbiont [Guitar tab]



Celldweller - Symbiont [Guitar tab]             15:03
Symbiont By Celldweller
GUITAR TAB

artist - Celldweller
song - Symbiont
drop D tuning

Listen to the song for the timing. This is probably the best tab for this song.
Coincidentally, it also just so happens to be the only tab for this song so far.
This is my 2nd tab, so if you're one of the two people that read it, feel free
to correct and/or rate it. Or don't. But if you don't, I will probably cry.

key:
: % - harmonic w/ feedback
: ^ - bend
: ' - bend slightly
: > - press down on whammy bar
: * - palm mute

main riff
1st 2nd
1|-----------------------------|-----| |-----|
2|-----------------------------|-----| |-----|
3|-----------------------------|-----| |-----|
4|-5-5-5-4-5-4-4-4-4-5-4-5-4-4-|-6-6-| |-8-8-|
5|-5-5-5-4-5-4-4-4-4-5-4-5-4-4-|-6-6-| |-8-8-|
6|-5-5-5-4-5-4-4-4-4-5-4-5-4-4-|-6-6-| |-8-8-|

:33

1|-----------------|
2|-----------------|
3|-8-8-8-8-8-8-8-8-|
4|-8-8-8-8-8-8-8-8-|
5|-6-6-6-6-6-6-6-6-|
6|-----------------|

1:06

1|------|
2|------|
3|--7%--|
4|------|
5|------|
6|------|

1:07 prechorus

1|--------------------------------------------------------------------------|
2|----------6'-----------8^---6'------6^------------------------------------|
3|--7'---6-------4'---3-----------3---------5-5-5-5---5-5-5---5-5-5-5-5-5-5-|
4|------------------------------------------5-5-5-5---5-5-5---5-5-5-5-5-5-5-|
5|------------------------------------------3-3-3-3---3-3-3---3-3-3-3-3-3-3-|
6|--------------------------------------------------------------------------|
p.m. * * * * * * * * * * * * * *

2:18

1|-------|
2|-------|
3|-------|
4|-5>>>>-|
5|-5>>>>-|
6|-5>>>>-|
| then alternate | finally,
end | | | | between ending w/ | end
2:38 w/ delay with| then| then| and | this and this | with
this| this| this| this| three times | this. Confused?
1|------17--18-----| ----| ----| ----| -13-| --------| -----13-| --------
2|-15--------------| ----| -15-| ----| ----| --------| --------| -----13-
3|--------------14-| ----| ----| ----| ----| -15-----| -15-----| -15-----
4|-----------------| ----| ----| ----| ----| -----15-| --------| --------
5|-----------------| ----| ----| ----| ----| --------| --------| --------
6|-----------------| ----| ----| ----| ----| --------| --------| --------

3:39

1|--------------------------------------------------------------------------------|
2|--------------------------------------------------------------------------------|
3|----7--7-------7-----7---7------------------------------------------------------|
4|--5---------5-----5----5-------5---5---8--5--5--8-5-5-8-5-5-8-5-5-8-5-8-5-8-5-5-|
5|--------------------------------------------------------------------------------|
6|--------------------------------------------------------------------------------|

3:44

1|-------------------------------------------|
2|-------------------------------------------|
3|-------------------------------------------|
4|--8--8--8--10--------3--3--3--5----3/5--5--|
5|--8--8--8--10--------3--3--3--5----3/5--5--|
6|--8--8--8--10--------3--3--3--5----3/5--5--|

5:13

1|----------------|
2|----------------|
3|----------------|
4|--8--8--8--10--|
5|--8--8--8--10--|
6|--8--8--8--10--|

5:21 outro

1|-------------------------------------------------|
2|-------------------------------------------------|
3|-------------------------------------------------|
4|--8--8--8--10--------10--8--5--------3--5--3--5--|
5|--8--8--8--10--------10--8--5--------3--5--3--5--|
6|--8--8--8--10--------10--8--5--------3--5--3--5--|

Visit www.directTABS.com for more free tablature!

Прикрепления:
Категория: Табы,аккорды | Просмотров: 524 | Добавил: Solid_Snake | Теги: | Рейтинг: /
Всего комментариев: 0