Главная » 2008 » Ноябрь » 29 » Celldweller - Own Little World [Bass Tab]



Celldweller - Own Little World [Bass Tab]             14:36
-------------------------------------------------------------------------------
Own Little World - Celldweller
-------------------------------------------------------------------------------

Tabbed By : Necrotic
e-mail: joelschwallier@gmail.com

Tuning: Drop C CGCF

Verse 0:14 0:25
F|----|-----------------------------| |------|
C|----|-----------------------------| |------|
G|----|-3-1-3--1-3-1-3--1-3--1-3-1--| |------|
C|1/8-|-----------------------------|x3 |-1/10-|

Pre-Chorus 0:49 1:00
F|----------------| |---------|---------|
C|----------------| |---------|---------|
G|--------------55| |86666655-|---------|
C|00033311132100--|x3 |---------|-0-12/1--|

Chorus 1:01 (the 3's at the start are sixteenth notes)
F|----------------------------------------------------------------|
C|----------------------------------------------------------------|
G|3333----------------------------5-5-5-5-5-5-5-5-1-1-1-1-1-1-1-1-|
C|----1-1-1-1-1-1-0-0-0-0-0-0-0-0---------------------------------|

F|----------------------------------------------------------------|
C|--------------------------------0-0-0-0-0-0-0-0-----------------|
G|3-3-3-3-3-3-3-----------------------------------1-1-1-1-1-1-1-1-|
C|--------------1-1-1-1-1-1-1-1-1-0-0-0-0-0-0-0-0-----------------|

Verse 1:12 1:22
F|-----------------------------| |------|
C|-----------------------------| |------|
G|-3-1-3--1-3-1-3--1-3--1-3-1--| |------|
C|-----------------------------|x3 |-1/10-|

Pre-Chorus 1:35 1:46
F|----------------| |---------|---------|
C|----------------| |---------|---------|
G|--------------55| |86666655-|---------|
C|00033311132100--|x3 |---------|-0-12/1--|

Chorus 1:47
F|----------------------------------------------------------------|
C|----------------------------------------------------------------|
G|3333----------------------------5-5-5-5-5-5-5-5-1-1-1-1-1-1-1-1-|
C|----1-1-1-1-1-1-0-0-0-0-0-0-0-0---------------------------------|

F|----------------------------------------------------------------|
C|--------------------------------0-0-0-0-0-0-0-0-----------------|
G|3-3-3-3-3-3-3-----------------------------------1-1-1-1-1-1-1-1-|
C|--------------1-1-1-1-1-1-1-1-1-0-0-0-0-0-0-0-0-----------------|x2 (repeat the Whole Chorus)

Verse 2:10 2:20
F|-----------------------------| |------|
C|-----------------------------| |------|
G|-3-1-3--1-3-1-3--1-3--1-3-1--| |------|
C|-----------------------------|x3 |-1/10-|

Verse 2:22
F|-----------------------------|
C|-----------------------------|
G|-3-1-3--1-3-1-3--1-3--1-3-1--|
C|-----------------------------|x11

Pre-chorus Slide 2:58
F|-------|
C|-------|
G|-------|
C|0-12/1-|

Chorus 2:59
F|----------------------------------------------------------------|
C|----------------------------------------------------------------|
G|3333----------------------------5-5-5-5-5-5-5-5-1-1-1-1-1-1-1-1-|
C|----1-1-1-1-1-1-0-0-0-0-0-0-0-0---------------------------------|

F|----------------------------------------------------------------|
C|--------------------------------0-0-0-0-0-0-0-0-----------------|
G|3-3-3-3-3-3-3-----------------------------------1-1-1-1-1-1-1-1-|
C|--------------1-1-1-1-1-1-1-1-1-0-0-0-0-0-0-0-0-----------------|x2 (repeat the Whole Chorus)

Verse 3:22 3:31
F|-----------------------------| |------|
C|-----------------------------| |------|
G|-3-1-3--1-3-1-3--1-3--1-3-1--| |------|
C|-----------------------------|x3 |-10/1-|

| / slide up
| \ slide down
| h hammer-on
| p pull-off
| ~ vibrato
| + harmonic
| x Mute note
===============================================================================

Прикрепления:
Категория: Табы,аккорды | Просмотров: 389 | Добавил: Solid_Snake | Теги: | Рейтинг: /
Всего комментариев: 0